  0
SECTION
  2
HEADER
  9
$ACADVER
  1
AC1015
  9
$ACADMAINTVER
 70
     6
  9
$DWGCODEPAGE
  3
ANSI_1254
  9
$INSBASE
 10
0.0
 20
0.0
 30
0.0
  9
$EXTMIN
 10
0.0
 20
0.0
 30
0.0
  9
$EXTMAX
 10
279.4
 20
215.9
 30
0.0
  9
$LIMMIN
 10
0.0
 20
0.0
  9
$LIMMAX
 10
279.4
 20
215.9
  9
$ORTHOMODE
 70
     0
  9
$REGENMODE
 70
     1
  9
$FILLMODE
 70
     1
  9
$QTEXTMODE
 70
     0
  9
$MIRRTEXT
 70
     1
  9
$LTSCALE
 40
1.0
  9
$ATTMODE
 70
     1
  9
$TEXTSIZE
 40
3.5
  9
$TRACEWID
 40
1.0
  9
$TEXTSTYLE
  7
Standard
  9
$CLAYER
  8
0
  9
$CELTYPE
  6
ByLayer
  9
$CECOLOR
 62
   256
  9
$CELTSCALE
 40
1.0
  9
$DISPSILH
 70
     0
  9
$DIMSCALE
 40
1.0
  9
$DIMASZ
 40
3.5
  9
$DIMEXO
 40
1.0
  9
$DIMDLI
 40
3.75
  9
$DIMRND
 40
0.0
  9
$DIMDLE
 40
0.0
  9
$DIMEXE
 40
1.0
  9
$DIMTP
 40
0.0
  9
$DIMTM
 40
0.0
  9
$DIMTXT
 40
3.5
  9
$DIMCEN
 40
2.5
  9
$DIMTSZ
 40
0.0
  9
$DIMTOL
 70
     0
  9
$DIMLIM
 70
     0
  9
$DIMTIH
 70
     1
  9
$DIMTOH
 70
     1
  9
$DIMSE1
 70
     0
  9
$DIMSE2
 70
     0
  9
$DIMTAD
 70
     1
  9
$DIMZIN
 70
     0
  9
$DIMBLK
  1

  9
$DIMASO
 70
     1
  9
$DIMSHO
 70
     1
  9
$DIMPOST
  1

  9
$DIMAPOST
  1

  9
$DIMALT
 70
     0
  9
$DIMALTD
 70
     3
  9
$DIMALTF
 40
0.0393700787
  9
$DIMLFAC
 40
1.0
  9
$DIMTOFL
 70
     1
  9
$DIMTVP
 40
0.0
  9
$DIMTIX
 70
     0
  9
$DIMSOXD
 70
     0
  9
$DIMSAH
 70
     0
  9
$DIMBLK1
  1

  9
$DIMBLK2
  1

  9
$DIMSTYLE
  2
ISO-25
  9
$DIMCLRD
 70
     0
  9
$DIMCLRE
 70
     0
  9
$DIMCLRT
 70
     0
  9
$DIMTFAC
 40
1.0
  9
$DIMGAP
 40
1.524
  9
$DIMJUST
 70
     0
  9
$DIMSD1
 70
     0
  9
$DIMSD2
 70
     0
  9
$DIMTOLJ
 70
     0
  9
$DIMTZIN
 70
     0
  9
$DIMALTZ
 70
     0
  9
$DIMALTTZ
 70
     0
  9
$DIMUPT
 70
     0
  9
$DIMDEC
 70
     2
  9
$DIMTDEC
 70
     2
  9
$DIMALTU
 70
     2
  9
$DIMALTTD
 70
     3
  9
$DIMTXSTY
  7
Standard
  9
$DIMAUNIT
 70
     0
  9
$DIMADEC
 70
     2
  9
$DIMALTRND
 40
0.0
  9
$DIMAZIN
 70
     0
  9
$DIMDSEP
 70
    44
  9
$DIMATFIT
 70
     3
  9
$DIMFRAC
 70
     0
  9
$DIMLDRBLK
  1

  9
$DIMLUNIT
 70
     2
  9
$DIMLWD
 70
    -2
  9
$DIMLWE
 70
    -2
  9
$DIMTMOVE
 70
     0
  9
$LUNITS
 70
     2
  9
$LUPREC
 70
     2
  9
$SKETCHINC
 40
1.0
  9
$FILLETRAD
 40
10.0
  9
$AUNITS
 70
     0
  9
$AUPREC
 70
     2
  9
$MENU
  1
.
  9
$ELEVATION
 40
0.0
  9
$PELEVATION
 40
0.0
  9
$THICKNESS
 40
0.0
  9
$LIMCHECK
 70
     0
  9
$CHAMFERA
 40
0.0
  9
$CHAMFERB
 40
0.0
  9
$CHAMFERC
 40
0.0
  9
$CHAMFERD
 40
0.0
  9
$SKPOLY
 70
     0
  9
$TDCREATE
 40
2458985.633309815
  9
$TDUCREATE
 40
2458985.508309815
  9
$TDUPDATE
 40
2458985.633310069
  9
$TDUUPDATE
 40
2458985.508310069
  9
$TDINDWG
 40
0.0000000116
  9
$TDUSRTIMER
 40
0.0000000116
  9
$USRTIMER
 70
     1
  9
$ANGBASE
 50
0.0
  9
$ANGDIR
 70
     0
  9
$PDMODE
 70
     0
  9
$PDSIZE
 40
-1.0
  9
$PLINEWID
 40
0.0
  9
$SPLFRAME
 70
     0
  9
$SPLINETYPE
 70
     6
  9
$SPLINESEGS
 70
     8
  9
$HANDSEED
  5
CE
  9
$SURFTAB1
 70
     6
  9
$SURFTAB2
 70
     6
  9
$SURFTYPE
 70
     6
  9
$SURFU
 70
     6
  9
$SURFV
 70
     6
  9
$UCSBASE
  2

  9
$UCSNAME
  2

  9
$UCSORG
 10
0.0
 20
0.0
 30
0.0
  9
$UCSXDIR
 10
1.0
 20
0.0
 30
0.0
  9
$UCSYDIR
 10
0.0
 20
1.0
 30
0.0
  9
$UCSORTHOREF
  2

  9
$UCSORTHOVIEW
 70
     0
  9
$UCSORGTOP
 10
0.0
 20
0.0
 30
0.0
  9
$UCSORGBOTTOM
 10
0.0
 20
0.0
 30
0.0
  9
$UCSORGLEFT
 10
0.0
 20
0.0
 30
0.0
  9
$UCSORGRIGHT
 10
0.0
 20
0.0
 30
0.0
  9
$UCSORGFRONT
 10
0.0
 20
0.0
 30
0.0
  9
$UCSORGBACK
 10
0.0
 20
0.0
 30
0.0
  9
$PUCSBASE
  2

  9
$PUCSNAME
  2

  9
$PUCSORG
 10
0.0
 20
0.0
 30
0.0
  9
$PUCSXDIR
 10
1.0
 20
0.0
 30
0.0
  9
$PUCSYDIR
 10
0.0
 20
1.0
 30
0.0
  9
$PUCSORTHOREF
  2

  9
$PUCSORTHOVIEW
 70
     0
  9
$PUCSORGTOP
 10
0.0
 20
0.0
 30
0.0
  9
$PUCSORGBOTTOM
 10
0.0
 20
0.0
 30
0.0
  9
$PUCSORGLEFT
 10
0.0
 20
0.0
 30
0.0
  9
$PUCSORGRIGHT
 10
0.0
 20
0.0
 30
0.0
  9
$PUCSORGFRONT
 10
0.0
 20
0.0
 30
0.0
  9
$PUCSORGBACK
 10
0.0
 20
0.0
 30
0.0
  9
$USERI1
 70
     0
  9
$USERI2
 70
     0
  9
$USERI3
 70
     0
  9
$USERI4
 70
     0
  9
$USERI5
 70
     0
  9
$USERR1
 40
0.0
  9
$USERR2
 40
0.0
  9
$USERR3
 40
0.0
  9
$USERR4
 40
0.0
  9
$USERR5
 40
0.0
  9
$WORLDVIEW
 70
     1
  9
$SHADEDGE
 70
     3
  9
$SHADEDIF
 70
    70
  9
$TILEMODE
 70
     1
  9
$MAXACTVP
 70
    64
  9
$PINSBASE
 10
0.0
 20
0.0
 30
0.0
  9
$PLIMCHECK
 70
     0
  9
$PEXTMIN
 10
1.0000000000E+20
 20
1.0000000000E+20
 30
1.0000000000E+20
  9
$PEXTMAX
 10
-1.0000000000E+20
 20
-1.0000000000E+20
 30
-1.0000000000E+20
  9
$PLIMMIN
 10
0.0
 20
0.0
  9
$PLIMMAX
 10
420.0
 20
297.0
  9
$UNITMODE
 70
     0
  9
$VISRETAIN
 70
     1
  9
$PLINEGEN
 70
     0
  9
$PSLTSCALE
 70
     1
  9
$TREEDEPTH
 70
  3020
  9
$CMLSTYLE
  2
Standard
  9
$CMLJUST
 70
     0
  9
$CMLSCALE
 40
20.0
  9
$PROXYGRAPHICS
 70
     1
  9
$MEASUREMENT
 70
     1
  9
$CELWEIGHT
370
    -1
  9
$ENDCAPS
280
     0
  9
$JOINSTYLE
280
     0
  9
$LWDISPLAY
290
     1
  9
$INSUNITS
 70
     4
  9
$HYPERLINKBASE
  1

  9
$STYLESHEET
  1

  9
$XEDIT
290
     1
  9
$CEPSNTYPE
380
     0
  9
$PSTYLEMODE
290
     1
  9
$FINGERPRINTGUID
  2
{dce7053f-2057-4efa-9de5-21f057b87874}
  9
$VERSIONGUID
  2
{FAEB1C32-E019-11D5-929B-00C0DF256EC4}
  9
$EXTNAMES
290
     1
  9
$PSVPSCALE
 40
0.0
  9
$OLESTARTUP
290
     0
  0
ENDSEC
  0
SECTION
  2
CLASSES
  0
CLASS
  1
ACDBDICTIONARYWDFLT
  2
AcDbDictionaryWithDefault
  3
ObjectDBX Classes
 90
        0
280
     0
281
     0
  0
CLASS
  1
VISUALSTYLE
  2
AcDbVisualStyle
  3
ObjectDBX Classes
 90
     4095
280
     0
281
     0
  0
CLASS
  1
MATERIAL
  2
AcDbMaterial
  3
ObjectDBX Classes
 90
     1153
280
     0
281
     0
  0
CLASS
  1
SCALE
  2
AcDbScale
  3
ObjectDBX Classes
 90
     1153
280
     0
281
     0
  0
CLASS
  1
TABLESTYLE
  2
AcDbTableStyle
  3
ObjectDBX Classes
 90
     4095
280
     0
281
     0
  0
CLASS
  1
MLEADERSTYLE
  2
AcDbMLeaderStyle
  3
ACDB_MLEADERSTYLE_CLASS
 90
     4095
280
     0
281
     0
  0
CLASS
  1
SUN
  2
AcDbSun
  3
SCENEOE
 90
     1153
280
     0
281
     0
  0
CLASS
  1
ACDBPLACEHOLDER
  2
AcDbPlaceHolder
  3
ObjectDBX Classes
 90
        0
280
     0
281
     0
  0
CLASS
  1
LAYOUT
  2
AcDbLayout
  3
ObjectDBX Classes
 90
        0
280
     0
281
     0
  0
ENDSEC
  0
SECTION
  2
TABLES
  0
TABLE
  2
VPORT
  5
8
330
0
100
AcDbSymbolTable
 70
     1
  0
VPORT
  5
29
330
8
100
AcDbSymbolTableRecord
100
AcDbViewportTableRecord
  2
*Active
 70
     0
 10
0.0
 20
0.0
 11
1.0
 21
1.0
 12
139.7
 22
107.95
 13
0.0
 23
0.0
 14
10.0
 24
10.0
 15
10.0
 25
10.0
 16
0.0
 26
0.0
 36
1.0
 17
0.0
 27
0.0
 37
0.0
 40
215.9
 41
1.2941176471
 42
50.0
 43
0.0
 44
0.0
 50
0.0
 51
0.0
 71
     0
 72
  2000
 73
     1
 74
     3
 75
     0
 76
     0
 77
     0
 78
     0
281
     0
 65
     1
110
0.0
120
0.0
130
0.0
111
1.0
121
0.0
131
0.0
112
0.0
122
1.0
132
0.0
 79
     0
146
0.0
  0
ENDTAB
  0
TABLE
  2
LTYPE
  5
5
330
0
100
AcDbSymbolTable
 70
     6
  0
LTYPE
  5
14
330
5
100
AcDbSymbolTableRecord
100
AcDbLinetypeTableRecord
  2
ByBlock
 70
     0
  3

 72
    65
 73
     0
 40
0.0
  0
LTYPE
  5
15
330
5
100
AcDbSymbolTableRecord
100
AcDbLinetypeTableRecord
  2
ByLayer
 70
     0
  3

 72
    65
 73
     0
 40
0.0
  0
LTYPE
  5
16
330
5
100
AcDbSymbolTableRecord
100
AcDbLinetypeTableRecord
  2
Continuous
 70
     0
  3
Solid line
 72
    65
 73
     0
 40
0.0
  0
LTYPE
  5
6E
330
5
100
AcDbSymbolTableRecord
100
AcDbLinetypeTableRecord
  2
HIDDEN
 70
     0
  3
Hidden __ __ __ __ __ __ __ __ __ __ __ __ __ __
 72
    65
 73
     2
 40
1.905
 49
1.27
 74
     0
 49
-0.635
 74
     0
  0
LTYPE
  5
6F
330
5
100
AcDbSymbolTableRecord
100
AcDbLinetypeTableRecord
  2
PHANTOM
 70
     0
  3
Phantom ______  __  __  ______  __  __  ______
 72
    65
 73
     6
 40
12.7
 49
6.35
 74
     0
 49
-1.27
 74
     0
 49
1.27
 74
     0
 49
-1.27
 74
     0
 49
1.27
 74
     0
 49
-1.27
 74
     0
  0
LTYPE
  5
70
330
5
100
AcDbSymbolTableRecord
100
AcDbLinetypeTableRecord
  2
CENTER
 70
     0
  3
Center ____ _ ____ _ ____ _ ____ _ ____ _ ____
 72
    65
 73
     4
 40
10.16
 49
6.35
 74
     0
 49
-1.27
 74
     0
 49
1.27
 74
     0
 49
-1.27
 74
     0
  0
LTYPE
  5
71
330
5
100
AcDbSymbolTableRecord
100
AcDbLinetypeTableRecord
  2
CENTERX2
 70
     0
  3
Center (2x) ________  __  ________  __  _____
 72
    65
 73
     4
 40
20.32
 49
12.7
 74
     0
 49
-2.54
 74
     0
 49
2.54
 74
     0
 49
-2.54
 74
     0
  0
LTYPE
  5
72
330
5
100
AcDbSymbolTableRecord
100
AcDbLinetypeTableRecord
  2
DOT2
 70
     0
  3
Dot (.5x) ........................................
 72
    65
 73
     2
 40
0.635
 49
0.0
 74
     0
 49
-0.635
 74
     0
  0
ENDTAB
  0
TABLE
  2
LAYER
  5
2
330
0
100
AcDbSymbolTable
 70
    17
  0
LAYER
  5
10
330
2
100
AcDbSymbolTableRecord
100
AcDbLayerTableRecord
  2
0
 70
     0
 62
     7
  6
Continuous
370
    -3
390
F
  0
LAYER
  5
73
330
2
100
AcDbSymbolTableRecord
100
AcDbLayerTableRecord
  2
FORMAT
 70
     0
 62
     7
  6
Continuous
370
    -3
390
F
  0
LAYER
  5
74
330
2
100
AcDbSymbolTableRecord
100
AcDbLayerTableRecord
  2
YARDIMCI_GEOMETRI
 70
     0
 62
    -6
  6
Continuous
290
     0
370
    -3
390
F
  0
LAYER
  5
75
330
2
100
AcDbSymbolTableRecord
100
AcDbLayerTableRecord
  2
SAYFA_CERCEVESI
 70
     0
 62
     7
  6
Continuous
370
    25
390
F
  0
LAYER
  5
76
330
2
100
AcDbSymbolTableRecord
100
AcDbLayerTableRecord
  2
ANTET
 70
     0
 62
     7
  6
Continuous
370
    -3
390
F
  0
LAYER
  5
77
330
2
100
AcDbSymbolTableRecord
100
AcDbLayerTableRecord
  2
OLCU
 70
     0
 62
   150
  6
Continuous
370
    -3
390
F
  0
LAYER
  5
78
330
2
100
AcDbSymbolTableRecord
100
AcDbLayerTableRecord
  2
METIN
 70
     0
 62
    96
  6
Continuous
370
    -3
390
F
  0
LAYER
  5
79
330
2
100
AcDbSymbolTableRecord
100
AcDbLayerTableRecord
  2
BALON
 70
     0
 62
     5
  6
Continuous
370
    -3
390
F
  0
LAYER
  5
7A
330
2
100
AcDbSymbolTableRecord
100
AcDbLayerTableRecord
  2
VURGU
 70
     0
 62
     7
  6
Continuous
370
    -3
390
F
  0
LAYER
  5
7B
330
2
100
AcDbSymbolTableRecord
100
AcDbLayerTableRecord
  2
SILIK
 70
     0
 62
     7
  6
Continuous
370
    -3
390
F
  0
LAYER
  5
7C
330
2
100
AcDbSymbolTableRecord
100
AcDbLayerTableRecord
  2
MODEL
 70
     0
 62
     7
  6
Continuous
370
    -3
390
F
  0
LAYER
  5
7D
330
2
100
AcDbSymbolTableRecord
100
AcDbLayerTableRecord
  2
DETAYLANDıRMA
 70
     0
 62
   190
  6
Continuous
370
    -3
390
F
  0
LAYER
  5
7E
330
2
100
AcDbSymbolTableRecord
100
AcDbLayerTableRecord
  2
TOLERANS
 70
     0
 62
   230
  6
Continuous
370
    -3
390
F
  0
LAYER
  5
7F
330
2
100
AcDbSymbolTableRecord
100
AcDbLayerTableRecord
  2
MERKEZ_CIZGILERI
 70
     0
 62
    30
  6
Continuous
370
    -3
390
F
  0
LAYER
  5
80
330
2
100
AcDbSymbolTableRecord
100
AcDbLayerTableRecord
  2
KESIT-DETAY_CIZGILERI
 70
     0
 62
     7
  6
Continuous
370
    -3
390
F
  0
LAYER
  5
81
330
2
100
AcDbSymbolTableRecord
100
AcDbLayerTableRecord
  2
\U+041E\U+0421\U+0415\U+0412\U+042B\U+0415
 70
     0
 62
     7
  6
Continuous
370
    -3
390
F
  0
LAYER
  5
82
330
2
100
AcDbSymbolTableRecord
100
AcDbLayerTableRecord
  2
\U+0412\U+041E\U+0414\U+042F\U+041D\U+042B\U+0415_\U+0417\U+041D\U+0410\U+041A\U+0418
 70
     0
 62
    11
  6
Continuous
370
    -3
390
F
  0
ENDTAB
  0
TABLE
  2
STYLE
  5
3
330
0
100
AcDbSymbolTable
 70
     1
  0
STYLE
  5
11
330
3
100
AcDbSymbolTableRecord
100
AcDbTextStyleTableRecord
  2
Standard
 70
     0
 40
0.0
 41
1.0
 50
0.0
 71
     0
 42
3.5
  3
txt
  4

  0
ENDTAB
  0
TABLE
  2
VIEW
  5
6
330
0
100
AcDbSymbolTable
 70
     0
  0
ENDTAB
  0
TABLE
  2
UCS
  5
7
330
0
100
AcDbSymbolTable
 70
     0
  0
ENDTAB
  0
TABLE
  2
APPID
  5
9
330
0
100
AcDbSymbolTable
 70
     1
  0
APPID
  5
12
330
9
100
AcDbSymbolTableRecord
100
AcDbRegAppTableRecord
  2
ACAD
 70
     0
  0
ENDTAB
  0
TABLE
  2
DIMSTYLE
  5
A
330
0
100
AcDbSymbolTable
 70
     1
100
AcDbDimStyleTable
  0
DIMSTYLE
105
27
330
A
100
AcDbSymbolTableRecord
100
AcDbDimStyleTableRecord
  2
ISO-25
 70
     0
 41
2.5
 42
0.625
 43
3.75
 44
1.25
 73
     0
 74
     0
 77
     1
 78
     8
140
2.5
141
2.5
143
0.0393700787
147
0.625
171
     3
172
     1
178
     0
271
     2
272
     2
274
     3
278
    44
283
     0
284
     8
340
11
  0
ENDTAB
  0
TABLE
  2
BLOCK_RECORD
  5
1
330
0
100
AcDbSymbolTable
 70
     2
  0
BLOCK_RECORD
  5
1F
330
1
100
AcDbSymbolTableRecord
100
AcDbBlockTableRecord
  2
*Model_Space
340
22
  0
BLOCK_RECORD
  5
1B
330
1
100
AcDbSymbolTableRecord
100
AcDbBlockTableRecord
  2
*Paper_Space
340
1E
  0
BLOCK_RECORD
  5
23
330
1
100
AcDbSymbolTableRecord
100
AcDbBlockTableRecord
  2
*Paper_Space0
340
26
  0
BLOCK_RECORD
  5
87
330
1
100
AcDbSymbolTableRecord
100
AcDbBlockTableRecord
  2
SW_CENTERMARKSYMBOL_0
340
0
102
{BLKREFS
331
92
102
}
  0
ENDTAB
  0
ENDSEC
  0
SECTION
  2
BLOCKS
  0
BLOCK
  5
20
330
1F
100
AcDbEntity
  8
0
100
AcDbBlockBegin
  2
*Model_Space
 70
     0
 10
0.0
 20
0.0
 30
0.0
  3
*Model_Space
  1

  0
ENDBLK
  5
21
330
1F
100
AcDbEntity
  8
0
100
AcDbBlockEnd
  0
BLOCK
  5
1C
330
1B
100
AcDbEntity
 67
     1
  8
0
100
AcDbBlockBegin
  2
*Paper_Space
 70
     0
 10
0.0
 20
0.0
 30
0.0
  3
*Paper_Space
  1

  0
ENDBLK
  5
1D
330
1B
100
AcDbEntity
 67
     1
  8
0
100
AcDbBlockEnd
  0
BLOCK
  5
24
330
23
100
AcDbEntity
  8
0
100
AcDbBlockBegin
  2
*Paper_Space0
 70
     0
 10
0.0
 20
0.0
 30
0.0
  3
*Paper_Space0
  1

  0
ENDBLK
  5
25
330
23
100
AcDbEntity
  8
0
100
AcDbBlockEnd
  0
BLOCK
  5
88
330
87
100
AcDbEntity
  8
0
100
AcDbBlockBegin
  2
SW_CENTERMARKSYMBOL_0
 70
     0
 10
0.0
 20
0.0
 30
0.0
  3
SW_CENTERMARKSYMBOL_0
  1

  0
LINE
  5
8A
330
87
100
AcDbEntity
  8
FORMAT
 62
     0
100
AcDbLine
 10
0.0
 20
0.0
 30
0.0
 11
0.0
 21
2.5
 31
0.0
  0
LINE
  5
8B
330
87
100
AcDbEntity
  8
FORMAT
 62
     0
100
AcDbLine
 10
0.0
 20
0.0
 30
0.0
 11
-2.5
 21
0.0
 31
0.0
  0
LINE
  5
8C
330
87
100
AcDbEntity
  8
FORMAT
 62
     0
100
AcDbLine
 10
0.0
 20
0.0
 30
0.0
 11
0.0
 21
-2.5
 31
0.0
  0
LINE
  5
8D
330
87
100
AcDbEntity
  8
FORMAT
 62
     0
100
AcDbLine
 10
0.0
 20
0.0
 30
0.0
 11
2.5
 21
0.0
 31
0.0
  0
LINE
  5
8E
330
87
100
AcDbEntity
  8
FORMAT
 62
     0
100
AcDbLine
 10
0.0
 20
5.0
 30
0.0
 11
0.0
 21
275.0
 31
0.0
  0
LINE
  5
8F
330
87
100
AcDbEntity
  8
FORMAT
 62
     0
100
AcDbLine
 10
-5.0
 20
0.0
 30
0.0
 11
-275.0
 21
0.0
 31
0.0
  0
LINE
  5
90
330
87
100
AcDbEntity
  8
FORMAT
 62
     0
100
AcDbLine
 10
0.0
 20
-5.0
 30
0.0
 11
0.0
 21
-275.0
 31
0.0
  0
LINE
  5
91
330
87
100
AcDbEntity
  8
FORMAT
 62
     0
100
AcDbLine
 10
5.0
 20
0.0
 30
0.0
 11
275.0
 21
0.0
 31
0.0
  0
ENDBLK
  5
89
330
87
100
AcDbEntity
  8
0
100
AcDbBlockEnd
  0
ENDSEC
  0
SECTION
  2
ENTITIES
  0
CIRCLE
  5
83
330
1F
100
AcDbEntity
  8
0
  6
Continuous
 62
     7
370
    25
100
AcDbCircle
 10
125.9272621277
 20
117.5839353191
 30
0.0
 40
225.0
  0
CIRCLE
  5
84
330
1F
100
AcDbEntity
  8
0
  6
Continuous
 62
     7
370
    25
100
AcDbCircle
 10
125.9272621277
 20
117.5839353191
 30
0.0
 40
184.1000000000001
  0
CIRCLE
  5
85
330
1F
100
AcDbEntity
  8
0
  6
Continuous
 62
     7
370
    25
100
AcDbCircle
 10
125.9272621277
 20
117.5839353191
 30
0.0
 40
232.5
  0
CIRCLE
  5
86
330
1F
100
AcDbEntity
  8
0
  6
Continuous
 62
     7
370
    25
100
AcDbCircle
 10
125.9272621277
 20
117.5839353191
 30
0.0
 40
272.5
  0
INSERT
  5
92
330
1F
100
AcDbEntity
  8
FORMAT
 62
     7
100
AcDbBlockReference
  2
SW_CENTERMARKSYMBOL_0
 10
125.9272621277
 20
117.5839353191
 30
0.0
  0
LINE
  5
93
330
1F
100
AcDbEntity
  8
0
  6
Continuous
 62
     7
370
    25
100
AcDbLine
 10
398.4272621277
 20
511.3565377368
 30
0.0
 11
398.4272621277
 21
577.3565377368
 31
0.0
  0
LINE
  5
94
330
1F
100
AcDbEntity
  8
0
  6
Continuous
 62
     7
370
    25
100
AcDbLine
 10
-146.5727378723
 20
577.3565377368
 30
0.0
 11
-146.5727378723
 21
511.3565377368
 31
0.0
  0
LINE
  5
95
330
1F
100
AcDbEntity
  8
0
  6
Continuous
 62
     7
370
    25
100
AcDbLine
 10
358.4272621277
 20
577.3565377368
 30
0.0
 11
350.9272621277
 21
676.3565377368
 31
0.0
  0
LINE
  5
96
330
1F
100
AcDbEntity
  8
0
  6
Continuous
 62
     7
370
    25
100
AcDbLine
 10
-99.0727378723
 20
676.3565377368
 30
0.0
 11
-106.5727378723
 21
577.3565377368
 31
0.0
  0
LINE
  5
97
330
1F
100
AcDbEntity
  8
0
  6
Continuous
 62
     7
370
    25
100
AcDbLine
 10
350.9272621277
 20
676.3565377368
 30
0.0
 11
350.9272621277
 21
871.3565377368
 31
0.0
  0
LINE
  5
98
330
1F
100
AcDbEntity
  8
0
  6
Continuous
 62
     7
370
    25
100
AcDbLine
 10
-99.0727378723
 20
871.3565377368
 30
0.0
 11
-99.0727378723
 21
676.3565377368
 31
0.0
  0
LINE
  5
99
330
1F
100
AcDbEntity
  8
0
  6
Continuous
 62
     7
370
    25
100
AcDbLine
 10
398.4272621277
 20
511.3565377368
 30
0.0
 11
-146.5727378723
 21
511.3565377368
 31
0.0
  0
LINE
  5
9A
330
1F
100
AcDbEntity
  8
0
  6
Continuous
 62
     7
370
    25
100
AcDbLine
 10
398.4272621277
 20
577.3565377368
 30
0.0
 11
-146.5727378723
 21
577.3565377368
 31
0.0
  0
LINE
  5
9B
330
1F
100
AcDbEntity
  8
0
  6
Continuous
 62
     7
370
    25
100
AcDbLine
 10
350.9272621277
 20
676.3565377368
 30
0.0
 11
-99.0727378723
 21
676.3565377368
 31
0.0
  0
LINE
  5
9C
330
1F
100
AcDbEntity
  8
0
  6
Continuous
 62
     7
370
    25
100
AcDbLine
 10
350.9272621277
 20
871.3565377368
 30
0.0
 11
-99.0727378723
 21
871.3565377368
 31
0.0
  0
LINE
  5
9D
330
1F
100
AcDbEntity
  8
0
  6
Continuous
 62
     7
370
    25
100
AcDbLine
 10
-310.4233819927
 20
390.0839353191
 30
0.0
 11
-376.4233819927
 21
390.0839353191
 31
0.0
  0
LINE
  5
9E
330
1F
100
AcDbEntity
  8
0
  6
Continuous
 62
     7
370
    25
100
AcDbLine
 10
-376.4233819927
 20
-154.9160646809
 30
0.0
 11
-310.4233819927
 21
-154.9160646809
 31
0.0
  0
LINE
  5
9F
330
1F
100
AcDbEntity
  8
0
  6
Continuous
 62
     7
370
    25
100
AcDbLine
 10
-376.4233819927
 20
350.0839353191
 30
0.0
 11
-475.4233819927
 21
342.5839353191
 31
0.0
  0
LINE
  5
A0
330
1F
100
AcDbEntity
  8
0
  6
Continuous
 62
     7
370
    25
100
AcDbLine
 10
-475.4233819927
 20
-107.4160646809
 30
0.0
 11
-376.4233819927
 21
-114.9160646809
 31
0.0
  0
LINE
  5
A1
330
1F
100
AcDbEntity
  8
0
  6
Continuous
 62
     7
370
    25
100
AcDbLine
 10
-475.4233819927
 20
342.5839353191
 30
0.0
 11
-670.4233819927
 21
342.5839353191
 31
0.0
  0
LINE
  5
A2
330
1F
100
AcDbEntity
  8
0
  6
Continuous
 62
     7
370
    25
100
AcDbLine
 10
-670.4233819927
 20
-107.4160646809
 30
0.0
 11
-475.4233819927
 21
-107.4160646809
 31
0.0
  0
LINE
  5
A3
330
1F
100
AcDbEntity
  8
0
  6
Continuous
 62
     7
370
    25
100
AcDbLine
 10
-310.4233819927
 20
390.0839353191
 30
0.0
 11
-310.4233819927
 21
-154.9160646809
 31
0.0
  0
LINE
  5
A4
330
1F
100
AcDbEntity
  8
0
  6
Continuous
 62
     7
370
    25
100
AcDbLine
 10
-376.4233819927
 20
390.0839353191
 30
0.0
 11
-376.4233819927
 21
-154.9160646809
 31
0.0
  0
LINE
  5
A5
330
1F
100
AcDbEntity
  8
0
  6
Continuous
 62
     7
370
    25
100
AcDbLine
 10
-475.4233819927
 20
342.5839353191
 30
0.0
 11
-475.4233819927
 21
-107.4160646809
 31
0.0
  0
LINE
  5
A6
330
1F
100
AcDbEntity
  8
0
  6
Continuous
 62
     7
370
    25
100
AcDbLine
 10
-670.4233819927
 20
342.5839353191
 30
0.0
 11
-670.4233819927
 21
-107.4160646809
 31
0.0
  0
LINE
  5
A7
330
1F
100
AcDbEntity
  8
0
  6
Continuous
 62
     7
370
    25
100
AcDbLine
 10
501.5349659838
 20
-154.9160646809
 30
0.0
 11
567.5349659838
 21
-154.9160646809
 31
0.0
  0
LINE
  5
A8
330
1F
100
AcDbEntity
  8
0
  6
Continuous
 62
     7
370
    25
100
AcDbLine
 10
567.5349659838
 20
390.0839353191
 30
0.0
 11
501.5349659838
 21
390.0839353191
 31
0.0
  0
LINE
  5
A9
330
1F
100
AcDbEntity
  8
0
  6
Continuous
 62
     7
370
    25
100
AcDbLine
 10
567.5349659838
 20
-114.9160646809
 30
0.0
 11
666.5349659838
 21
-107.4160646809
 31
0.0
  0
LINE
  5
AA
330
1F
100
AcDbEntity
  8
0
  6
Continuous
 62
     7
370
    25
100
AcDbLine
 10
666.5349659838
 20
342.5839353191
 30
0.0
 11
567.5349659838
 21
350.0839353191
 31
0.0
  0
LINE
  5
AB
330
1F
100
AcDbEntity
  8
0
  6
Continuous
 62
     7
370
    25
100
AcDbLine
 10
666.5349659838
 20
-107.4160646809
 30
0.0
 11
861.5349659838
 21
-107.4160646809
 31
0.0
  0
LINE
  5
AC
330
1F
100
AcDbEntity
  8
0
  6
Continuous
 62
     7
370
    25
100
AcDbLine
 10
861.5349659838
 20
342.5839353191
 30
0.0
 11
666.5349659838
 21
342.5839353191
 31
0.0
  0
LINE
  5
AD
330
1F
100
AcDbEntity
  8
0
  6
Continuous
 62
     7
370
    25
100
AcDbLine
 10
501.5349659838
 20
117.5839353191
 30
0.0
 11
501.5349659838
 21
390.0839353191
 31
0.0
  0
LINE
  5
AE
330
1F
100
AcDbEntity
  8
0
  6
Continuous
 62
     7
370
    25
100
AcDbLine
 10
501.5349659838
 20
-154.9160646809
 30
0.0
 11
501.5349659838
 21
117.5839353191
 31
0.0
  0
LINE
  5
AF
330
1F
100
AcDbEntity
  8
0
  6
Continuous
 62
     7
370
    25
100
AcDbLine
 10
567.5349659838
 20
117.5839353191
 30
0.0
 11
567.5349659838
 21
390.0839353191
 31
0.0
  0
LINE
  5
B0
330
1F
100
AcDbEntity
  8
0
  6
Continuous
 62
     7
370
    25
100
AcDbLine
 10
567.5349659838
 20
-154.9160646809
 30
0.0
 11
567.5349659838
 21
117.5839353191
 31
0.0
  0
LINE
  5
B1
330
1F
100
AcDbEntity
  8
0
  6
Continuous
 62
     7
370
    25
100
AcDbLine
 10
666.5349659838
 20
117.5839353191
 30
0.0
 11
666.5349659838
 21
342.5839353191
 31
0.0
  0
LINE
  5
B2
330
1F
100
AcDbEntity
  8
0
  6
Continuous
 62
     7
370
    25
100
AcDbLine
 10
666.5349659838
 20
-107.4160646809
 30
0.0
 11
666.5349659838
 21
117.5839353191
 31
0.0
  0
LINE
  5
B3
330
1F
100
AcDbEntity
  8
0
  6
Continuous
 62
     7
370
    25
100
AcDbLine
 10
861.5349659838
 20
117.5839353191
 30
0.0
 11
861.5349659838
 21
342.5839353191
 31
0.0
  0
LINE
  5
B4
330
1F
100
AcDbEntity
  8
0
  6
Continuous
 62
     7
370
    25
100
AcDbLine
 10
861.5349659838
 20
-107.4160646809
 30
0.0
 11
861.5349659838
 21
117.5839353191
 31
0.0
  0
LINE
  5
B5
330
1F
100
AcDbEntity
  8
0
  6
Continuous
 62
     7
370
    25
100
AcDbLine
 10
-146.5727378723
 20
-298.3786344558
 30
0.0
 11
-146.5727378723
 21
-364.3786344558
 31
0.0
  0
LINE
  5
B6
330
1F
100
AcDbEntity
  8
0
  6
Continuous
 62
     7
370
    25
100
AcDbLine
 10
398.4272621277
 20
-364.3786344558
 30
0.0
 11
398.4272621277
 21
-298.3786344558
 31
0.0
  0
LINE
  5
B7
330
1F
100
AcDbEntity
  8
0
  6
Continuous
 62
     7
370
    25
100
AcDbLine
 10
-106.5727378723
 20
-364.3786344558
 30
0.0
 11
-99.0727378723
 21
-463.3786344558
 31
0.0
  0
LINE
  5
B8
330
1F
100
AcDbEntity
  8
0
  6
Continuous
 62
     7
370
    25
100
AcDbLine
 10
350.9272621277
 20
-463.3786344558
 30
0.0
 11
358.4272621277
 21
-364.3786344558
 31
0.0
  0
LINE
  5
B9
330
1F
100
AcDbEntity
  8
0
  6
Continuous
 62
     7
370
    25
100
AcDbLine
 10
-99.0727378723
 20
-463.3786344558
 30
0.0
 11
-99.0727378723
 21
-658.3786344558
 31
0.0
  0
LINE
  5
BA
330
1F
100
AcDbEntity
  8
0
  6
Continuous
 62
     7
370
    25
100
AcDbLine
 10
350.9272621277
 20
-658.3786344558
 30
0.0
 11
350.9272621277
 21
-463.3786344558
 31
0.0
  0
LINE
  5
BB
330
1F
100
AcDbEntity
  8
0
  6
Continuous
 62
     7
370
    25
100
AcDbLine
 10
-146.5727378723
 20
-298.3786344558
 30
0.0
 11
398.4272621277
 21
-298.3786344558
 31
0.0
  0
LINE
  5
BC
330
1F
100
AcDbEntity
  8
0
  6
Continuous
 62
     7
370
    25
100
AcDbLine
 10
-146.5727378723
 20
-364.3786344558
 30
0.0
 11
398.4272621277
 21
-364.3786344558
 31
0.0
  0
LINE
  5
BD
330
1F
100
AcDbEntity
  8
0
  6
Continuous
 62
     7
370
    25
100
AcDbLine
 10
-99.0727378723
 20
-463.3786344558
 30
0.0
 11
350.9272621277
 21
-463.3786344558
 31
0.0
  0
LINE
  5
BE
330
1F
100
AcDbEntity
  8
0
  6
Continuous
 62
     7
370
    25
100
AcDbLine
 10
-99.0727378723
 20
-658.3786344558
 30
0.0
 11
350.9272621277
 21
-658.3786344558
 31
0.0
  0
LINE
  5
BF
330
1F
100
AcDbEntity
  8
0
  6
Continuous
 62
     7
370
    25
100
AcDbLine
 10
627.9640740462
 20
-348.5293355179
 30
0.0
 11
536.9584732049
 21
-437.3535918447
 31
0.0
  0
LINE
  5
C0
330
1F
100
AcDbEntity
  8
0
  6
Continuous
 62
     7
370
    25
100
AcDbLine
 10
851.2736445977
 20
-759.3877096526
 30
0.0
 11
942.279245439
 21
-670.5634533258
 31
0.0
  0
LINE
  5
C1
330
1F
100
AcDbEntity
  8
0
  6
Continuous
 62
     7
370
    25
100
AcDbLine
 10
658.4511657028
 20
-309.5550312942
 30
0.0
 11
622.5787135124
 21
-353.7856124948
 31
0.0
  0
LINE
  5
C2
330
1F
100
AcDbEntity
  8
0
  6
Continuous
 62
     7
370
    25
100
AcDbLine
 10
936.8938849052
 20
-675.8197303027
 30
0.0
 11
981.9815930093
 21
-641.0307131074
 31
0.0
  0
LINE
  5
C3
330
1F
100
AcDbEntity
  8
0
  6
Continuous
 62
     7
370
    25
100
AcDbLine
 10
671.7911006838
 20
-239.3778591821
 30
0.0
 11
640.9892050144
 21
-269.4414536312
 31
0.0
  0
LINE
  5
C4
330
1F
100
AcDbEntity
  8
0
  6
Continuous
 62
     7
370
    25
100
AcDbLine
 10
1021.659801479
 20
-659.4605518652
 30
0.0
 11
1052.4616971484
 21
-629.3969574162
 31
0.0
  0
LWPOLYLINE
  5
C5
330
1F
100
AcDbEntity
  8
0
  6
Continuous
 62
     7
370
    25
100
AcDbPolyline
 90
       82
 70
   128
 43
0.0
 10
627.9640740462
 20
-348.5293355179
 10
629.3668769713
 20
-347.1806177491
 10
634.3814090057
 20
-342.6734253446
 10
639.6313040476
 20
-338.4267852723
 10
645.1083650093
 20
-334.4473281565
 10
650.8040401101
 20
-330.7412674472
 10
656.7094362295
 20
-327.3143897182
 10
662.8153327924
 20
-324.1720456323
 10
669.1121961663
 20
-321.3191415868
 10
675.5901945464
 20
-318.7601320527
 10
682.2392133072
 20
-316.4990126196
 10
689.0488707952
 20
-314.539313757
 10
696.0085345387
 20
-312.8840953022
 10
703.1073378488
 20
-311.5359416822
 10
710.3341967868
 20
-310.496957879
 10
717.6778274705
 20
-309.7687661423
 10
725.1267636922
 20
-309.3525034571
 10
732.6693748222
 20
-309.2488197682
 10
740.2938839687
 20
-309.4578769654
 10
747.9883863656
 20
-309.9793486307
 10
755.740867961
 20
-310.8124205479
 10
763.539224175
 20
-311.9557919742
 10
771.3712788002
 20
-313.4076776708
 10
779.224803013
 20
-315.1658106906
 10
787.0875344675
 20
-317.2274459175
 10
794.947196442
 20
-319.5893643528
 10
802.7915170073
 20
-322.2478781413
 10
810.6082481881
 20
-325.1988363293
 10
818.3851850864
 20
-328.437631346
 10
826.1101849385
 20
-331.9592061972
 10
833.7711860741
 20
-335.758062362
 10
841.3562267495
 20
-339.8282683774
 10
848.8534638239
 20
-344.1634690999
 10
856.2511912516
 20
-348.7568956281
 10
863.5378583595
 20
-353.6013758718
 10
870.7020878818
 20
-358.6893457502
 10
877.7326937246
 20
-364.0128610023
 10
884.6186984313
 20
-369.563609591
 10
891.3493503232
 20
-375.3329246812
 10
897.9141402863
 20
-381.3117981723
 10
904.3028181802
 20
-387.4908947631
 10
910.5054088429
 20
-393.8605665278
 10
916.5122276653
 20
-400.4108679799
 10
922.3138957129
 20
-407.1315716015
 10
927.9013543698
 20
-414.0121838115
 10
933.2658794824
 20
-421.0419613508
 10
938.3990949817
 20
-428.2099280562
 10
943.292985961
 20
-435.5048919986
 10
947.9399111905
 20
-442.9154629578
 10
952.332615048
 20
-450.430070207
 10
956.464238848
 20
-458.0369805788
 10
960.3283315503
 20
-465.7243167859
 10
963.9188598328
 20
-473.4800759651
 10
967.2302175119
 20
-481.2921484193
 10
970.2572342956
 20
-489.1483365247
 10
972.9951838566
 20
-497.0363737761
 10
975.4397912116
 20
-504.9439439396
 10
977.5872393964
 20
-512.8587002833
 10
979.4341754257
 20
-520.7682848546
 10
980.977715528
 20
-528.660347776
 10
982.2154496487
 20
-536.5225665283
 10
983.1454452128
 20
-544.3426651901
 10
983.7662501429
 20
-552.1084336056
 10
984.0768951255
 20
-559.8077464494
 10
984.0768951255
 20
-567.4285821584
 10
983.7662501429
 20
-574.9590417022
 10
983.1454452128
 20
-582.3873671623
 10
982.2154496487
 20
-589.7019600902
 10
980.977715528
 20
-596.8913996173
 10
979.4341754257
 20
-603.9444602873
 10
977.5872393964
 20
-610.8501295832
 10
975.4397912116
 20
-617.5976251221
 10
972.9951838566
 20
-624.1764114907
 10
970.2572342956
 20
-630.576216695
 10
967.2302175119
 20
-636.787048199
 10
963.9188598328
 20
-642.7992085265
 10
960.3283315503
 20
-648.6033104028
 10
956.464238848
 20
-654.1902914118
 10
952.332615048
 20
-659.551428146
 10
947.9399111905
 20
-664.6783498267
 10
943.292985961
 20
-669.5630513743
 10
942.279245439
 20
-670.5634533258
  0
LWPOLYLINE
  5
C6
330
1F
100
AcDbEntity
  8
0
  6
Continuous
 62
     7
370
    25
100
AcDbPolyline
 90
      160
 70
   128
 43
0.0
 10
495.1219815239
 20
-544.2883244448
 10
495.2773343388
 20
-536.7111978261
 10
495.7431502185
 20
-529.2303451237
 10
496.5187018468
 20
-521.8574468011
 10
497.602778292
 20
-514.6040147637
 10
498.9936868973
 20
-507.4813743848
 10
500.6892559241
 20
-500.5006468217
 10
502.6868379426
 20
-493.6727316519
 10
504.9833139656
 20
-487.0082898544
 10
507.5750983184
 20
-480.5177271638
 10
510.4581442375
 20
-474.2111778235
 10
513.6279501887
 20
-468.0984887616
 10
517.0795668965
 20
-462.1892042163
 10
520.807605071
 20
-456.4925508341
 10
524.8062438233
 20
-451.0174232629
 10
529.0692397535
 20
-445.7723702646
 10
533.5899366996
 20
-440.7655813668
 10
538.3612761299
 20
-436.004874076
 10
543.3758081643
 20
-431.4976816714
 10
548.6257032063
 20
-427.2510415991
 10
554.1027641679
 20
-423.2715844833
 10
559.7984392687
 20
-419.565523774
 10
565.7038353881
 20
-416.138646045
 10
571.8097319511
 20
-412.9963019591
 10
578.1065953249
 20
-410.1433979136
 10
584.584593705
 20
-407.5843883795
 10
591.2336124658
 20
-405.3232689464
 10
598.0432699539
 20
-403.3635700838
 10
605.0029336973
 20
-401.708351629
 10
612.1017370074
 20
-400.3601980091
 10
619.3285959455
 20
-399.3212142058
 10
626.6722266291
 20
-398.5930224691
 10
634.1211628508
 20
-398.1767597839
 10
641.6637739808
 20
-398.0730760951
 10
649.2882831273
 20
-398.2821332923
 10
656.9827855243
 20
-398.8036049575
 10
664.7352671197
 20
-399.6366768748
 10
672.5336233337
 20
-400.7800483011
 10
680.3656779589
 20
-402.2319339977
 10
688.2192021716
 20
-403.9900670174
 10
696.0819336261
 20
-406.0517022443
 10
703.9415956006
 20
-408.4136206796
 10
711.785916166
 20
-411.0721344682
 10
719.6026473467
 20
-414.0230926562
 10
727.379584245
 20
-417.2618876728
 10
735.1045840971
 20
-420.7834625241
 10
742.7655852328
 20
-424.5823186889
 10
750.3506259081
 20
-428.6525247043
 10
757.8478629825
 20
-432.9877254267
 10
765.2455904103
 20
-437.5811519549
 10
772.5322575181
 20
-442.4256321987
 10
779.6964870404
 20
-447.5136020771
 10
786.7270928832
 20
-452.8371173292
 10
793.61309759
 20
-458.3878659178
 10
800.3437494819
 20
-464.157181008
 10
806.9085394449
 20
-470.1360544991
 10
813.2972173388
 20
-476.3151510899
 10
819.4998080015
 20
-482.6848228546
 10
825.506626824
 20
-489.2351243068
 10
831.3082948716
 20
-495.9558279283
 10
836.8957535284
 20
-502.8364401383
 10
842.2602786411
 20
-509.8662176776
 10
847.3934941404
 20
-517.034184383
 10
852.2873851197
 20
-524.3291483255
 10
856.9343103491
 20
-531.7397192847
 10
861.3270142067
 20
-539.2543265338
 10
865.4586380066
 20
-546.8612369057
 10
869.3227307089
 20
-554.5485731127
 10
872.9132589914
 20
-562.304332292
 10
876.2246166705
 20
-570.1164047462
 10
879.2516334543
 20
-577.9725928515
 10
881.9895830152
 20
-585.8606301029
 10
884.4341903702
 20
-593.7682002665
 10
886.5816385551
 20
-601.6829566101
 10
888.4285745843
 20
-609.5925411814
 10
889.9721146866
 20
-617.4846041029
 10
891.2098488073
 20
-625.3468228551
 10
892.1398443715
 20
-633.1669215169
 10
892.7606493015
 20
-640.9326899325
 10
893.0712942841
 20
-648.6320027763
 10
893.0712942841
 20
-656.2528384852
 10
892.7606493015
 20
-663.7832980291
 10
892.1398443715
 20
-671.2116234891
 10
891.2098488073
 20
-678.526216417
 10
889.9721146866
 20
-685.7156559441
 10
888.4285745843
 20
-692.7687166141
 10
886.5816385551
 20
-699.67438591
 10
884.4341903702
 20
-706.4218814489
 10
881.9895830152
 20
-713.0006678175
 10
879.2516334543
 20
-719.4004730218
 10
876.2246166705
 20
-725.6113045258
 10
872.9132589914
 20
-731.6234648533
 10
869.3227307089
 20
-737.4275667296
 10
865.4586380066
 20
-743.0145477387
 10
861.3270142067
 20
-748.3756844728
 10
856.9343103491
 20
-753.5026061535
 10
852.2873851197
 20
-758.3873077011
 10
847.3934941404
 20
-763.022162234
 10
842.2602786411
 20
-767.399932977
 10
836.8957535284
 20
-771.5137845608
 10
831.3082948716
 20
-775.3572936945
 10
825.506626824
 20
-778.9244591947
 10
819.4998080015
 20
-782.2097113562
 10
813.2972173388
 20
-785.2079206475
 10
806.9085394449
 20
-787.9144057207
 10
800.3437494819
 20
-790.3249407208
 10
793.61309759
 20
-792.4357618834
 10
786.7270928832
 20
-794.2435734119
 10
779.6964870404
 20
-795.7455526232
 10
772.5322575181
 20
-796.9393543551
 10
765.2455904102
 20
-797.8231146277
 10
757.8478629825
 20
-798.3954535545
 10
750.3506259081
 20
-798.655477496
 10
742.7655852328
 20
-798.6027804558
 10
735.1045840971
 20
-798.2374447141
 10
727.379584245
 20
-797.5600406992
 10
719.6026473467
 20
-796.5716260971
 10
711.785916166
 20
-795.2737441998
 10
703.9415956006
 20
-793.668421496
 10
696.0819336261
 20
-791.7581645063
 10
688.2192021716
 20
-789.5459558704
 10
680.3656779588
 20
-787.0352496895
 10
672.5336233337
 20
-784.2299661331
 10
664.7352671196
 20
-781.1344853186
 10
656.9827855243
 20
-777.7536404717
 10
649.2882831273
 20
-774.0927103805
 10
641.6637739808
 20
-770.1574111526
 10
634.1211628508
 20
-765.9538872906
 10
626.6722266291
 20
-761.4887020982
 10
619.3285959455
 20
-756.7688274318
 10
612.1017370074
 20
-751.8016328155
 10
605.0029336973
 20
-746.5948739341
 10
598.0432699539
 20
-741.1566805234
 10
591.2336124658
 20
-735.495543677
 10
584.584593705
 20
-729.620302588
 10
578.1065953249
 20
-723.5401307479
 10
571.8097319511
 20
-717.2645216232
 10
565.7038353881
 20
-710.8032738328
 10
559.7984392687
 20
-704.166475848
 10
554.1027641679
 20
-697.364490241
 10
548.6257032063
 20
-690.4079375049
 10
543.3758081643
 20
-683.307679471
 10
538.3612761299
 20
-676.0748023495
 10
533.5899366996
 20
-668.7205994192
 10
529.0692397535
 20
-661.2565533951
 10
524.8062438233
 20
-653.694318499
 10
520.807605071
 20
-646.0457022631
 10
517.0795668965
 20
-638.3226470936
 10
513.6279501887
 20
-630.5372116244
 10
510.4581442374
 20
-622.7015518888
 10
507.5750983184
 20
-614.8279023393
 10
504.9833139656
 20
-606.928556745
 10
502.6868379426
 20
-599.0158489964
 10
500.6892559241
 20
-591.1021338473
 10
498.9936868973
 20
-583.1997676246
 10
497.602778292
 20
-575.3210889349
 10
496.5187018468
 20
-567.4783993999
 10
495.7431502185
 20
-559.6839444483
 10
495.2773343388
 20
-551.9498941961
 10
495.1219815239
 20
-544.2883244448
  0
LWPOLYLINE
  5
C7
330
1F
100
AcDbEntity
  8
0
  6
Continuous
 62
     7
370
    25
100
AcDbPolyline
 90
      145
 70
   128
 43
0.0
 10
531.2946827005
 20
-554.1192895374
 10
531.4496525723
 20
-547.2780714119
 10
531.914267194
 20
-540.534110915
 10
532.6876421452
 20
-533.900245559
 10
533.7683052626
 20
-527.3891032835
 10
535.1541994426
 20
-521.0130784179
 10
536.842686557
 20
-514.784308088
 10
538.8305524744
 20
-508.7146491121
 10
541.1140131792
 20
-502.815655431
 10
543.688721974
 20
-497.0985561145
 10
546.5497777545
 20
-491.574233986
 10
549.6917343382
 20
-486.2532049068
 10
553.1086108322
 20
-481.145597758
 10
556.793903018
 20
-476.2611351603
 10
560.7405957324
 20
-471.6091149657
 10
564.9411762215
 20
-467.1983925592
 10
569.3876484417
 20
-463.0373640014
 10
574.0715482802
 20
-459.1339500469
 10
578.9839596676
 20
-455.4955810658
 10
584.1155315495
 20
-452.1291829003
 10
589.4564956873
 20
-449.0411636807
 10
594.9966852521
 20
-446.2374016271
 10
600.7255541782
 20
-443.7232338599
 10
606.6321972381
 20
-441.5034462403
 10
612.7053708009
 20
-439.5822642602
 10
618.9335142355
 20
-437.9633449988
 10
625.3047719171
 20
-436.6497701608
 10
631.8070157943
 20
-435.6440402106
 10
638.4278684766
 20
-434.9480696123
 10
645.1547267944
 20
-434.5631831856
 10
651.9747857907
 20
-434.4901135836
 10
658.8750630955
 20
-434.7289998985
 10
665.8424236388
 20
-435.2793873965
 10
672.8636046538
 20
-436.1402283838
 10
679.9252409233
 20
-437.3098842007
 10
687.0138902214
 20
-438.7861283407
 10
694.1160589013
 20
-440.5661506894
 10
701.2182275811
 20
-442.646562873
 10
708.3068768792
 20
-445.0234047086
 10
715.3685131488
 20
-447.6921517427
 10
722.3896941638
 20
-450.6477238637
 10
729.357054707
 20
-453.8844949721
 10
736.2573320118
 20
-457.39630369
 10
743.0773910081
 20
-461.17646509
 10
749.804249326
 20
-465.21778342
 10
756.4251020082
 20
-469.5125658009
 10
762.9273458855
 20
-474.0526368703
 10
769.298603567
 20
-478.8293543449
 10
775.5267470017
 20
-483.8336254715
 10
781.5999205645
 20
-489.0559243356
 10
787.5065636243
 20
-494.4863099944
 10
793.2354325504
 20
-500.1144454003
 10
798.7756221153
 20
-505.9296170775
 10
804.116586253
 20
-511.9207555164
 10
809.248158135
 20
-518.0764562443
 10
814.1605695224
 20
-524.3850015351
 10
818.8444693609
 20
-530.8343827142
 10
823.290941581
 20
-537.412323018
 10
827.4915220701
 20
-544.1063009634
 10
831.4382147845
 20
-550.9035741827
 10
835.1235069703
 20
-557.7912036801
 10
838.5403834644
 20
-564.7560784614
 10
841.6823400481
 20
-571.7849404916
 10
844.5433958285
 20
-578.8644099322
 10
847.1181046234
 20
-585.981010611
 10
849.4015653281
 20
-593.1211956739
 10
851.3894312456
 20
-600.2713733729
 10
853.0779183599
 20
-607.4179329384
 10
854.46381254
 20
-614.547270488
 10
855.5444756574
 20
-621.6458149225
 10
856.3178506085
 20
-628.7000537591
 10
856.7824652302
 20
-635.6965588533
 10
856.9374351021
 20
-642.62201196
 10
856.7824652302
 20
-649.4632300855
 10
856.3178506085
 20
-656.2071905823
 10
855.5444756574
 20
-662.8410559384
 10
854.46381254
 20
-669.3521982139
 10
853.0779183599
 20
-675.7282230794
 10
851.3894312456
 20
-681.9569934094
 10
849.4015653281
 20
-688.0266523853
 10
847.1181046234
 20
-693.9256460664
 10
844.5433958285
 20
-699.6427453829
 10
841.6823400481
 20
-705.1670675114
 10
838.5403834644
 20
-710.4880965906
 10
835.1235069703
 20
-715.5957037394
 10
831.4382147845
 20
-720.4801663371
 10
827.4915220701
 20
-725.1321865317
 10
823.290941581
 20
-729.5429089382
 10
818.8444693609
 20
-733.7039374959
 10
814.1605695224
 20
-737.6073514505
 10
809.248158135
 20
-741.2457204316
 10
804.116586253
 20
-744.6121185971
 10
798.7756221153
 20
-747.7001378166
 10
793.2354325504
 20
-750.5038998703
 10
787.5065636243
 20
-753.0180676375
 10
781.5999205645
 20
-755.2378552571
 10
775.5267470017
 20
-757.1590372372
 10
769.298603567
 20
-758.7779564986
 10
762.9273458855
 20
-760.0915313366
 10
756.4251020082
 20
-761.0972612868
 10
749.804249326
 20
-761.793231885
 10
743.0773910081
 20
-762.1781183118
 10
736.2573320118
 20
-762.2511879138
 10
729.357054707
 20
-762.0123015989
 10
722.3896941638
 20
-761.4619141009
 10
715.3685131488
 20
-760.6010731136
 10
708.3068768792
 20
-759.4314172967
 10
701.2182275811
 20
-757.9551731566
 10
694.1160589013
 20
-756.1751508079
 10
687.0138902214
 20
-754.0947386244
 10
679.9252409233
 20
-751.7178967888
 10
672.8636046537
 20
-749.0491497546
 10
665.8424236388
 20
-746.0935776336
 10
658.8750630955
 20
-742.8568065253
 10
651.9747857907
 20
-739.3449978074
 10
645.1547267944
 20
-735.5648364074
 10
638.4278684766
 20
-731.5235180773
 10
631.8070157943
 20
-727.2287356964
 10
625.3047719171
 20
-722.688664627
 10
618.9335142355
 20
-717.9119471524
 10
612.7053708009
 20
-712.9076760259
 10
606.6321972381
 20
-707.6853771618
 10
600.7255541782
 20
-702.254991503
 10
594.9966852521
 20
-696.6268560971
 10
589.4564956873
 20
-690.8116844199
 10
584.1155315495
 20
-684.820545981
 10
578.9839596675
 20
-678.6648452531
 10
574.0715482802
 20
-672.3562999623
 10
569.3876484417
 20
-665.9069187832
 10
564.9411762215
 20
-659.3289784793
 10
560.7405957324
 20
-652.635000534
 10
556.793903018
 20
-645.8377273147
 10
553.1086108322
 20
-638.9500978173
 10
549.6917343382
 20
-631.985223036
 10
546.5497777544
 20
-624.9563610058
 10
543.688721974
 20
-617.8768915651
 10
541.1140131792
 20
-610.7602908864
 10
538.8305524744
 20
-603.6201058235
 10
536.842686557
 20
-596.4699281245
 10
535.1541994426
 20
-589.323368559
 10
533.7683052626
 20
-582.1940310094
 10
532.6876421452
 20
-575.0954865749
 10
531.914267194
 20
-568.0412477382
 10
531.4496525723
 20
-561.044742644
 10
531.2946827005
 20
-554.1192895374
  0
LINE
  5
C8
330
1F
100
AcDbEntity
  8
0
  6
Continuous
 62
     7
370
    25
100
AcDbLine
 10
651.9905496342
 20
-436.3164233072
 30
0.0
 11
652.0014857773
 21
-434.4904386197
 31
0.0
  0
LWPOLYLINE
  5
C9
330
1F
100
AcDbEntity
  8
0
  6
Continuous
 62
     7
370
    25
100
AcDbPolyline
 90
       43
 70
   128
 43
0.0
 10
856.926498959
 20
-644.4479966476
 10
850.0529216407
 20
-644.2094353688
 10
843.0855610975
 20
-643.6590478708
 10
836.0643800825
 20
-642.7982068834
 10
829.0027438129
 20
-641.6285510666
 10
821.9140945148
 20
-640.1523069265
 10
814.811925835
 20
-638.3722845778
 10
807.7097571551
 20
-636.2918723943
 10
800.621107857
 20
-633.9150305586
 10
793.5594715874
 20
-631.2462835245
 10
786.5382905725
 20
-628.2907114035
 10
779.5709300292
 20
-625.0539402952
 10
772.6706527244
 20
-621.5421315772
 10
765.8505937281
 20
-617.7619701772
 10
759.1237354103
 20
-613.7206518472
 10
752.502882728
 20
-609.4258694663
 10
746.0006388507
 20
-604.8857983969
 10
739.6293811692
 20
-600.1090809223
 10
733.4012377346
 20
-595.1048097957
 10
727.3280641718
 20
-589.8825109317
 10
721.4214211119
 20
-584.4521252728
 10
715.6925521858
 20
-578.823989867
 10
710.152362621
 20
-573.0088181897
 10
704.8113984832
 20
-567.0176797509
 10
699.6798266012
 20
-560.861979023
 10
694.7674152139
 20
-554.5534337322
 10
690.0835153753
 20
-548.104052553
 10
685.6370431552
 20
-541.5261122492
 10
681.4364626661
 20
-534.8321343039
 10
677.4897699517
 20
-528.0348610846
 10
673.8044777659
 20
-521.1472315871
 10
670.3876012719
 20
-514.1823568058
 10
667.2456446881
 20
-507.1534947757
 10
664.3845889077
 20
-500.074025335
 10
661.8098801129
 20
-492.9574246563
 10
659.5264194081
 20
-485.8172395933
 10
657.5385534907
 20
-478.6670618943
 10
655.8500663763
 20
-471.5205023288
 10
654.4641721963
 20
-464.3911647792
 10
653.3835090789
 20
-457.2926203447
 10
652.6101341277
 20
-450.2383815081
 10
652.145519506
 20
-443.2418764139
 10
651.9905496342
 20
-436.3164233072
  0
LWPOLYLINE
  5
CA
330
1F
100
AcDbEntity
  8
0
  6
Continuous
 62
     7
370
    25
100
AcDbPolyline
 90
       87
 70
   128
 43
0.0
 10
658.4511657028
 20
-309.5550312942
 10
659.9348994582
 20
-307.7576142689
 10
664.4981749032
 20
-302.6007441211
 10
669.315499328
 20
-297.6903452198
 10
674.3795367421
 20
-293.0338952925
 10
679.682575452
 20
-288.6384853444
 10
685.2165398044
 20
-284.5108088598
 10
690.9730024843
 20
-280.6571516091
 10
696.9431973488
 20
-277.0833820766
 10
703.1180327758
 20
-273.7949425239
 10
709.4881055094
 20
-270.7968407019
 10
716.0437149798
 20
-268.0936422252
 10
722.7748780749
 20
-265.6894636192
 10
729.6713443438
 20
-263.5879660513
 10
736.7226116059
 20
-261.7923497556
 10
743.9179419442
 20
-260.3053491597
 10
751.2463780576
 20
-259.12922872
 10
758.6967599466
 20
-258.2657794741
 10
766.2577419087
 20
-257.7163163127
 10
773.9178098154
 20
-257.4816759776
 10
781.6652986469
 20
-257.5622157873
 10
789.4884102556
 20
-257.957813093
 10
797.3752313331
 20
-258.6678654652
 10
805.3137515516
 20
-259.6912916112
 10
813.2918818546
 20
-261.026533022
 10
821.2974728654
 20
-262.6715563449
 10
829.3183333895
 20
-264.623856481
 10
837.3422489793
 20
-266.8804603991
 10
845.3570005351
 20
-269.4379316636
 10
853.3503829121
 20
-272.2923756678
 10
861.3102235077
 20
-275.4394455641
 10
869.2244007974
 20
-278.8743488844
 10
877.0808627948
 20
-282.5918548373
 10
884.8676454042
 20
-286.5863022746
 10
892.5728906402
 20
-290.8516083118
 10
900.1848646851
 20
-295.3812775912
 10
907.6919757581
 20
-300.1684121737
 10
915.0827917675
 20
-305.205722043
 10
922.3460577194
 20
-310.4855362072
 10
929.470712858
 20
-315.99981438
 10
936.4459075088
 20
-321.7401592256
 10
943.2610196007
 20
-327.6978291454
 10
949.9056708424
 20
-333.8637515911
 10
956.3697425259
 20
-340.2285368797
 10
962.6433909363
 20
-346.7824924931
 10
968.7170623421
 20
-353.5156378382
 10
974.5815075434
 20
-360.417719445
 10
980.2277959576
 20
-367.4782265819
 10
985.6473292188
 20
-374.686407261
 10
990.8318542718
 20
-382.0312846124
 10
995.7734759402
 20
-389.5016735992
 10
1000.4646689492
 20
-397.0861980513
 10
1004.8982893858
 20
-404.773307989
 10
1009.0675855773
 20
-412.551297212
 10
1012.9662083733
 20
-420.4083211255
 10
1016.5882208145
 20
-428.3324147783
 10
1019.9281071734
 20
-436.3115110827
 10
1022.9807813538
 20
-444.3334591913
 10
1025.7415946367
 20
-452.3860430003
 10
1028.2063427588
 20
-460.4569997529
 10
1030.3712723152
 20
-468.5340387132
 10
1032.2330864753
 20
-476.6048598832
 10
1033.7889500033
 20
-484.6571727337
 10
1035.0364935757
 20
-492.6787149202
 10
1035.9738173894
 20
-500.6572709574
 10
1036.5994940548
 20
-508.5806908203
 10
1036.9125707697
 20
-516.4369084475
 10
1036.9125707697
 20
-524.2139601156
 10
1036.5994940548
 20
-531.9000026575
 10
1035.9738173894
 20
-539.4833314983
 10
1035.0364935757
 20
-546.9523984792
 10
1033.7889500033
 20
-554.2958294431
 10
1032.2330864753
 20
-561.5024415559
 10
1030.3712723152
 20
-568.5612603362
 10
1028.2063427588
 20
-575.4615363673
 10
1025.7415946367
 20
-582.1927616671
 10
1022.9807813538
 20
-588.7446856897
 10
1019.9281071734
 20
-595.1073309355
 10
1016.5882208145
 20
-601.2710081455
 10
1012.9662083733
 20
-607.2263310559
 10
1009.0675855773
 20
-612.9642306923
 10
1004.8982893858
 20
-618.47596918
 10
1000.4646689492
 20
-623.7531530504
 10
995.7734759402
 20
-628.787746023
 10
990.8318542718
 20
-633.5720812432
 10
985.6473292188
 20
-638.0988729575
 10
981.9815930093
 20
-641.0307131074
  0
LWPOLYLINE
  5
CB
330
1F
100
AcDbEntity
  8
0
  6
Continuous
 62
     7
370
    25
100
AcDbPolyline
 90
       89
 70
   128
 43
0.0
 10
671.7911006838
 20
-239.3778591821
 10
675.0582670149
 20
-236.279448764
 10
680.6332098955
 20
-231.3813778775
 10
686.4420889146
 20
-226.7449721647
 10
692.4774167017
 20
-222.3762077334
 10
698.7314140048
 20
-218.2807157143
 10
705.196019717
 20
-214.463775003
 10
711.8629012674
 20
-210.9303054555
 10
718.7234653607
 20
-207.6848615471
 10
725.7688690543
 20
-204.7316265015
 10
732.9900311561
 20
-202.0744068989
 10
740.3776439294
 20
-199.7166277698
 10
747.9221850909
 20
-197.6613281801
 10
755.6139300836
 20
-195.9111573136
 10
763.442964612
 20
-194.4683710579
 10
771.3991974209
 20
-193.3348290963
 10
779.4723733023
 20
-192.5119925107
 10
787.6520863143
 20
-192.0009218985
 10
795.9277931935
 20
-191.8022760057
 10
804.2888269453
 20
-191.9163108774
 10
812.7244105924
 20
-192.342879528
 10
821.2236710663
 20
-193.0814321307
 10
829.7756532224
 20
-194.1310167261
 10
838.3693339598
 20
-195.4902804494
 10
846.9936364306
 20
-197.1574712738
 10
855.6374443167
 20
-199.1304402692
 10
864.2896161584
 20
-201.406644372
 10
872.9389997153
 20
-203.9831496625
 10
881.5744463411
 20
-206.8566351474
 10
890.1848253535
 20
-210.0233970397
 10
898.7590383809
 20
-213.4793535331
 10
907.2860336683
 20
-217.2200500631
 10
915.754820322
 20
-221.2406650487
 10
924.1544824763
 20
-225.5360161074
 10
932.4741933641
 20
-230.1005667348
 10
940.7032292713
 20
-234.9284334409
 10
948.8309833599
 20
-240.0133933338
 10
956.846979339
 20
-245.3488921408
 10
964.740884969
 20
-250.928052656
 10
972.5025253788
 20
-256.7436836055
 10
980.1218961809
 20
-262.788288916
 10
987.5891763666
 20
-269.054077377
 10
994.8947409649
 20
-275.5329726835
 10
1002.0291734485
 20
-282.2166238458
 10
1008.9832778712
 20
-289.0964159537
 10
1015.7480907213
 20
-296.1634812803
 10
1022.314892475
 20
-303.4087107127
 10
1028.6752188352
 20
-310.8227654928
 10
1034.8208716421
 20
-318.3960892545
 10
1040.7439294398
 20
-326.1189203416
 10
1046.4367576868
 20
-333.9813043901
 10
1051.8920185968
 20
-341.9731071586
 10
1057.1026805965
 20
-350.0840275913
 10
1062.0620273888
 20
-358.3036110953
 10
1066.7636666103
 20
-366.6212630161
 10
1071.2015380703
 20
-375.0262622938
 10
1075.3699215625
 20
-383.5077752817
 10
1079.2634442375
 20
-392.0548697107
 10
1082.8770875288
 20
-400.6565287801
 10
1086.206193621
 20
-409.3016653582
 10
1089.2464714539
 20
-417.9791362727
 10
1091.9940022529
 20
-426.677756674
 10
1094.445244581
 20
-435.3863144517
 10
1096.5970389025
 20
-444.0935846866
 10
1098.4466116565
 20
-452.788344119
 10
1099.991578831
 20
-461.4593856154
 10
1101.2299490364
 20
-470.0955326131
 10
1102.1601260722
 20
-478.685653527
 10
1102.780910984
 20
-487.2186760976
 10
1103.0915036095
 20
-495.6836016623
 10
1103.0915036095
 20
-504.0695193321
 10
1102.780910984
 20
-512.3656200559
 10
1102.1601260722
 20
-520.5612105521
 10
1101.2299490364
 20
-528.645727092
 10
1099.991578831
 20
-536.6087491161
 10
1098.4466116565
 20
-544.4400126657
 10
1096.5970389025
 20
-552.1294236122
 10
1094.445244581
 20
-559.6670706686
 10
1091.9940022529
 20
-567.0432381643
 10
1089.2464714539
 20
-574.2484185681
 10
1086.206193621
 20
-581.2733247433
 10
1082.8770875288
 20
-588.1089019179
 10
1079.2634442375
 20
-594.7463393562
 10
1075.3699215625
 20
-601.1770817152
 10
1071.2015380703
 20
-607.3928400721
 10
1066.7636666103
 20
-613.3856026082
 10
1062.0620273888
 20
-619.1476449362
 10
1057.1026805965
 20
-624.6715400558
 10
1052.4616971484
 20
-629.3969574162
  0
LWPOLYLINE
  5
CC
330
1F
100
AcDbEntity
  8
0
  6
Continuous
 62
     7
370
    25
100
AcDbPolyline
 90
      123
 70
   128
 43
0.0
 10
590.7688578326
 20
-384.8330068145
 10
590.9416502478
 20
-382.3617685351
 10
591.7172561966
 20
-374.220403182
 10
592.8017045566
 20
-366.195340805
 10
594.1935975251
 20
-358.2969253302
 10
595.8911410181
 20
-350.5353374414
 10
597.8921469821
 20
-342.9205814585
 10
600.194036215
 20
-335.4624724419
 10
602.7938416906
 20
-328.1706235414
 10
605.6882123825
 20
-321.0544336055
 10
608.8734175838
 20
-314.1230750665
 10
612.3453517155
 20
-307.3854821177
 10
616.0995396187
 20
-300.850339198
 10
620.1311423228
 20
-294.5260697974
 10
624.4349632825
 20
-288.4208256002
 10
629.005455076
 20
-282.5424759775
 10
633.8367265557
 20
-276.898597844
 10
638.922550441
 20
-271.4964658916
 10
644.2563713455
 20
-266.3430432131
 10
649.8313142261
 20
-261.4449723266
 10
655.6401932452
 20
-256.8085666138
 10
661.6755210323
 20
-252.4398021825
 10
667.9295183354
 20
-248.3443101634
 10
674.3941240477
 20
-244.5273694521
 10
681.061005598
 20
-240.9938999046
 10
687.9215696913
 20
-237.7484559962
 10
694.9669733849
 20
-234.7952209505
 10
702.1881354867
 20
-232.138001348
 10
709.57574826
 20
-229.7802222189
 10
717.1202894215
 20
-227.7249226292
 10
724.8120344142
 20
-225.9747517627
 10
732.6410689427
 20
-224.531965507
 10
740.5973017515
 20
-223.3984235454
 10
748.6704776329
 20
-222.5755869597
 10
756.8501906449
 20
-222.0645163476
 10
765.1258975242
 20
-221.8658704548
 10
773.4869312759
 20
-221.9799053264
 10
781.922514923
 20
-222.406473977
 10
790.421775397
 20
-223.1450265798
 10
798.973757553
 20
-224.1946111752
 10
807.5674382904
 20
-225.5538748985
 10
816.1917407612
 20
-227.2210657229
 10
824.8355486473
 20
-229.1940347183
 10
833.487720489
 20
-231.470238821
 10
842.1371040459
 20
-234.0467441116
 10
850.7725506718
 20
-236.9202295965
 10
859.3829296841
 20
-240.0869914888
 10
867.9571427115
 20
-243.5429479822
 10
876.4841379989
 20
-247.2836445122
 10
884.9529246526
 20
-251.3042594978
 10
893.3525868069
 20
-255.5996105565
 10
901.6722976947
 20
-260.1641611839
 10
909.9013336019
 20
-264.99202789
 10
918.0290876905
 20
-270.0769877829
 10
926.0450836696
 20
-275.4124865898
 10
933.9389892996
 20
-280.9916471051
 10
941.7006297094
 20
-286.8072780546
 10
949.3200005115
 20
-292.8518833651
 10
956.7872806972
 20
-299.1176718261
 10
964.0928452955
 20
-305.5965671326
 10
971.2272777791
 20
-312.2802182949
 10
978.1813822018
 20
-319.1600104028
 10
984.946195052
 20
-326.2270757294
 10
991.5129968056
 20
-333.4723051618
 10
997.8733231658
 20
-340.8863599419
 10
1004.0189759727
 20
-348.4596837036
 10
1009.9420337704
 20
-356.1825147907
 10
1015.6348620174
 20
-364.0448988391
 10
1021.0901229275
 20
-372.0367016076
 10
1026.3007849271
 20
-380.1476220403
 10
1031.2601317194
 20
-388.3672055444
 10
1035.9617709409
 20
-396.6848574652
 10
1040.399642401
 20
-405.0898567429
 10
1044.5680258931
 20
-413.5713697308
 10
1048.4615485681
 20
-422.1184641598
 10
1052.0751918594
 20
-430.7201232292
 10
1055.4042979516
 20
-439.3652598073
 10
1058.4445757845
 20
-448.0427307218
 10
1061.1921065836
 20
-456.7413511231
 10
1063.6433489116
 20
-465.4499089008
 10
1065.7951432331
 20
-474.1571791356
 10
1067.6447159871
 20
-482.8519385681
 10
1069.1896831616
 20
-491.5229800644
 10
1070.4280533671
 20
-500.1591270621
 10
1071.3582304028
 20
-508.7492479761
 10
1071.9790153146
 20
-517.2822705467
 10
1072.2896079401
 20
-525.7471961113
 10
1072.2896079401
 20
-534.1331137812
 10
1071.9790153146
 20
-542.429214505
 10
1071.3582304028
 20
-550.6248050011
 10
1070.4280533671
 20
-558.7093215411
 10
1069.1896831616
 20
-566.6723435652
 10
1067.6447159871
 20
-574.5036071147
 10
1065.7951432331
 20
-582.1930180613
 10
1063.6433489116
 20
-589.7306651177
 10
1061.1921065836
 20
-597.1068326134
 10
1058.4445757845
 20
-604.3120130172
 10
1055.4042979516
 20
-611.3369191924
 10
1052.0751918594
 20
-618.172496367
 10
1048.4615485681
 20
-624.8099338053
 10
1044.5680258931
 20
-631.2406761643
 10
1040.399642401
 20
-637.4564345211
 10
1035.9617709409
 20
-643.4491970573
 10
1031.2601317194
 20
-649.2112393853
 10
1026.3007849271
 20
-654.7351345049
 10
1021.0901229275
 20
-660.0137623765
 10
1015.6348620174
 20
-665.0403190986
 10
1009.9420337704
 20
-669.808325677
 10
1004.0189759727
 20
-674.3116363768
 10
997.8733231658
 20
-678.5444466435
 10
991.5129968056
 20
-682.5013005848
 10
984.946195052
 20
-686.177098003
 10
978.1813822018
 20
-689.5671009692
 10
971.2272777791
 20
-692.6669399297
 10
964.0928452955
 20
-695.4726193387
 10
956.7872806972
 20
-697.9805228082
 10
949.3200005115
 20
-700.1874177692
 10
941.7006297094
 20
-702.0904596384
 10
933.9389892996
 20
-703.6871954848
 10
926.0450836696
 20
-704.9755671915
 10
918.0290876905
 20
-705.9539141082
 10
909.9013336019
 20
-706.620975192
 10
905.0840292254
 20
-706.8671246224
  0
LWPOLYLINE
  5
CD
330
1F
100
AcDbEntity
  8
0
  6
Continuous
 62
     7
370
    25
100
AcDbPolyline
 90
       33
 70
   128
 43
0.0
 10
855.5823191002
 20
-621.936635586
 10
852.3526994527
 20
-620.9281163561
 10
844.5501744935
 20
-618.277073278
 10
836.7757962714
 20
-615.3315474988
 10
829.0420147513
 20
-612.0962560121
 10
821.3612148864
 20
-608.5763798453
 10
813.7456967843
 20
-604.7775557623
 10
806.20765601
 20
-600.7058672371
 10
798.7591640555
 20
-596.3678347112
 10
791.4121490082
 20
-591.7704051524
 10
784.1783764497
 20
-586.9209409289
 10
777.0694306138
 20
-581.8272080202
 10
770.0966958357
 20
-576.4973635797
 10
763.2713383207
 20
-570.9399428723
 10
756.6042882629
 20
-565.1638456055
 10
750.1062223412
 20
-559.1783216779
 10
743.7875466217
 20
-552.9929563658
 10
737.6583798933
 20
-546.6176549734
 10
731.7285374631
 20
-540.0626269705
 10
726.0075154388
 20
-533.3383696429
 10
720.5044755207
 20
-526.4556512817
 10
715.2282303306
 20
-519.4254939391
 10
710.1872292988
 20
-512.2591557777
 10
705.3895451337
 20
-504.9681130412
 10
700.8428608932
 20
-497.5640416764
 10
696.554457682
 20
-490.0587986354
 10
692.5312029906
 20
-482.4644028875
 10
688.7795396983
 20
-474.793016172
 10
685.3054757553
 20
-467.0569235224
 10
682.1145745614
 20
-459.2685135929
 10
679.2119460569
 20
-451.4402588189
 10
676.6022385393
 20
-443.584695444
 10
674.4736181282
 20
-436.3802703415
  0
ENDSEC
  0
SECTION
  2
OBJECTS
  0
DICTIONARY
  5
C
330
0
100
AcDbDictionary
281
     1
  3
ACAD_GROUP
350
D
  3
ACAD_LAYOUT
350
1A
  3
ACAD_MLINESTYLE
350
17
  3
ACAD_PLOTSETTINGS
350
19
  3
ACAD_PLOTSTYLENAME
350
E
  3
ACAD_SCALELIST
350
47
  0
DICTIONARY
  5
D
102
{ACAD_REACTORS
330
C
102
}
330
C
100
AcDbDictionary
281
     1
  0
DICTIONARY
  5
1A
102
{ACAD_REACTORS
330
C
102
}
330
C
100
AcDbDictionary
281
     1
  3
Layout1
350
1E
  3
Layout2
350
26
  3
Model
350
22
  0
DICTIONARY
  5
17
102
{ACAD_REACTORS
330
C
102
}
330
C
100
AcDbDictionary
281
     1
  3
Standard
350
18
  0
DICTIONARY
  5
19
102
{ACAD_REACTORS
330
C
102
}
330
C
100
AcDbDictionary
281
     1
  0
ACDBDICTIONARYWDFLT
  5
E
102
{ACAD_REACTORS
330
C
102
}
330
C
100
AcDbDictionary
281
     1
  3
Normal
350
F
100
AcDbDictionaryWithDefault
340
F
  0
DICTIONARY
  5
47
102
{ACAD_REACTORS
330
C
102
}
330
C
100
AcDbDictionary
281
     1
  3
A0
350
48
  3
A1
350
49
  3
A2
350
4A
  3
A3
350
4B
  3
A4
350
4C
  3
A5
350
4D
  3
A6
350
4E
  3
A7
350
4F
  3
A8
350
50
  3
A9
350
51
  3
B0
350
52
  3
B1
350
53
  3
B2
350
54
  3
B3
350
55
  3
B4
350
56
  3
B5
350
57
  3
B6
350
58
  3
B7
350
59
  3
B8
350
5A
  3
B9
350
5B
  3
C0
350
5C
  3
C1
350
5D
  3
C2
350
5E
  3
C3
350
5F
  3
C4
350
60
  3
C5
350
61
  3
C6
350
62
  3
C7
350
63
  3
C8
350
64
  3
C9
350
65
  3
D0
350
66
  3
D1
350
67
  3
D2
350
68
  0
LAYOUT
  5
1E
102
{ACAD_REACTORS
330
1A
102
}
330
1A
100
AcDbPlotSettings
  1

  2
none_device
  4

  6

 40
0.0
 41
0.0
 42
0.0
 43
0.0
 44
0.0
 45
0.0
 46
0.0
 47
0.0
 48
0.0
 49
0.0
140
0.0
141
0.0
142
1.0
143
1.0
 70
   688
 72
     1
 73
     0
 74
     5
  7

 75
    16
147
1.0
148
0.0
149
0.0
100
AcDbLayout
  1
Layout1
 70
     1
 71
     1
 10
0.0
 20
0.0
 11
420.0
 21
297.0
 12
0.0
 22
0.0
 32
0.0
 14
1.0000000000E+20
 24
1.0000000000E+20
 34
1.0000000000E+20
 15
-1.0000000000E+20
 25
-1.0000000000E+20
 35
-1.0000000000E+20
146
0.0
 13
0.0
 23
0.0
 33
0.0
 16
1.0
 26
0.0
 36
0.0
 17
0.0
 27
1.0
 37
0.0
 76
     0
330
1B
  0
LAYOUT
  5
26
102
{ACAD_REACTORS
330
1A
102
}
330
1A
100
AcDbPlotSettings
  1

  2
none_device
  4

  6

 40
0.0
 41
0.0
 42
0.0
 43
0.0
 44
0.0
 45
0.0
 46
0.0
 47
0.0
 48
0.0
 49
0.0
140
0.0
141
0.0
142
1.0
143
1.0
 70
   688
 72
     1
 73
     0
 74
     5
  7

 75
    16
147
1.0
148
0.0
149
0.0
100
AcDbLayout
  1
Layout2
 70
     1
 71
     2
 10
0.0
 20
0.0
 11
0.0
 21
0.0
 12
0.0
 22
0.0
 32
0.0
 14
0.0
 24
0.0
 34
0.0
 15
0.0
 25
0.0
 35
0.0
146
0.0
 13
0.0
 23
0.0
 33
0.0
 16
1.0
 26
0.0
 36
0.0
 17
0.0
 27
1.0
 37
0.0
 76
     0
330
23
  0
LAYOUT
  5
22
102
{ACAD_REACTORS
330
1A
102
}
330
1A
100
AcDbPlotSettings
  1

  2
none_device
  4
Letter_(8.50_x_11.00_Inches)
  6

 40
6.35
 41
6.35
 42
6.35000508
 43
6.35000508
 44
215.9
 45
279.4
 46
0.0
 47
0.0
 48
0.0
 49
0.0
140
0.0
141
0.0
142
1.0
143
1.0
 70
  1712
 72
     1
 73
     0
 74
     0
  7

 75
     0
147
1.0
148
0.0
149
0.0
100
AcDbLayout
  1
Model
 70
     1
 71
     0
 10
0.0
 20
0.0
 11
279.4
 21
215.9
 12
0.0
 22
0.0
 32
0.0
 14
0.0
 24
0.0
 34
0.0
 15
279.4
 25
215.9
 35
0.0
146
0.0
 13
0.0
 23
0.0
 33
0.0
 16
1.0
 26
0.0
 36
0.0
 17
0.0
 27
1.0
 37
0.0
 76
     0
330
1F
331
29
  0
MLINESTYLE
  5
18
102
{ACAD_REACTORS
330
17
102
}
330
17
100
AcDbMlineStyle
  2
Standard
 70
     0
  3

 62
   256
 51
90.0
 52
90.0
 71
     2
 49
0.5
 62
   256
  6
BYLAYER
 49
-0.5
 62
   256
  6
BYLAYER
  0
ACDBPLACEHOLDER
  5
F
102
{ACAD_REACTORS
330
E
102
}
330
E
  0
SCALE
  5
48
102
{ACAD_REACTORS
330
47
102
}
330
47
100
AcDbScale
 70
     0
300
1:1
140
1.0
141
1.0
290
     1
  0
SCALE
  5
49
102
{ACAD_REACTORS
330
47
102
}
330
47
100
AcDbScale
 70
     0
300
1:2
140
1.0
141
2.0
290
     0
  0
SCALE
  5
4A
102
{ACAD_REACTORS
330
47
102
}
330
47
100
AcDbScale
 70
     0
300
1:4
140
1.0
141
4.0
290
     0
  0
SCALE
  5
4B
102
{ACAD_REACTORS
330
47
102
}
330
47
100
AcDbScale
 70
     0
300
1:5
140
1.0
141
5.0
290
     0
  0
SCALE
  5
4C
102
{ACAD_REACTORS
330
47
102
}
330
47
100
AcDbScale
 70
     0
300
1:8
140
1.0
141
8.0
290
     0
  0
SCALE
  5
4D
102
{ACAD_REACTORS
330
47
102
}
330
47
100
AcDbScale
 70
     0
300
1:10
140
1.0
141
10.0
290
     0
  0
SCALE
  5
4E
102
{ACAD_REACTORS
330
47
102
}
330
47
100
AcDbScale
 70
     0
300
1:16
140
1.0
141
16.0
290
     0
  0
SCALE
  5
4F
102
{ACAD_REACTORS
330
47
102
}
330
47
100
AcDbScale
 70
     0
300
1:20
140
1.0
141
20.0
290
     0
  0
SCALE
  5
50
102
{ACAD_REACTORS
330
47
102
}
330
47
100
AcDbScale
 70
     0
300
1:30
140
1.0
141
30.0
290
     0
  0
SCALE
  5
51
102
{ACAD_REACTORS
330
47
102
}
330
47
100
AcDbScale
 70
     0
300
1:40
140
1.0
141
40.0
290
     0
  0
SCALE
  5
52
102
{ACAD_REACTORS
330
47
102
}
330
47
100
AcDbScale
 70
     0
300
1:50
140
1.0
141
50.0
290
     0
  0
SCALE
  5
53
102
{ACAD_REACTORS
330
47
102
}
330
47
100
AcDbScale
 70
     0
300
1:100
140
1.0
141
100.0
290
     0
  0
SCALE
  5
54
102
{ACAD_REACTORS
330
47
102
}
330
47
100
AcDbScale
 70
     0
300
2:1
140
2.0
141
1.0
290
     0
  0
SCALE
  5
55
102
{ACAD_REACTORS
330
47
102
}
330
47
100
AcDbScale
 70
     0
300
4:1
140
4.0
141
1.0
290
     0
  0
SCALE
  5
56
102
{ACAD_REACTORS
330
47
102
}
330
47
100
AcDbScale
 70
     0
300
8:1
140
8.0
141
1.0
290
     0
  0
SCALE
  5
57
102
{ACAD_REACTORS
330
47
102
}
330
47
100
AcDbScale
 70
     0
300
10:1
140
10.0
141
1.0
290
     0
  0
SCALE
  5
58
102
{ACAD_REACTORS
330
47
102
}
330
47
100
AcDbScale
 70
     0
300
100:1
140
100.0
141
1.0
290
     0
  0
SCALE
  5
59
102
{ACAD_REACTORS
330
47
102
}
330
47
100
AcDbScale
 70
     0
300
1/128" = 1'-0"
140
0.0078125
141
12.0
290
     0
  0
SCALE
  5
5A
102
{ACAD_REACTORS
330
47
102
}
330
47
100
AcDbScale
 70
     0
300
1/64" = 1'-0"
140
0.015625
141
12.0
290
     0
  0
SCALE
  5
5B
102
{ACAD_REACTORS
330
47
102
}
330
47
100
AcDbScale
 70
     0
300
1/32" = 1'-0"
140
0.03125
141
12.0
290
     0
  0
SCALE
  5
5C
102
{ACAD_REACTORS
330
47
102
}
330
47
100
AcDbScale
 70
     0
300
1/16" = 1'-0"
140
0.0625
141
12.0
290
     0
  0
SCALE
  5
5D
102
{ACAD_REACTORS
330
47
102
}
330
47
100
AcDbScale
 70
     0
300
3/32" = 1'-0"
140
0.09375
141
12.0
290
     0
  0
SCALE
  5
5E
102
{ACAD_REACTORS
330
47
102
}
330
47
100
AcDbScale
 70
     0
300
1/8" = 1'-0"
140
0.125
141
12.0
290
     0
  0
SCALE
  5
5F
102
{ACAD_REACTORS
330
47
102
}
330
47
100
AcDbScale
 70
     0
300
3/16" = 1'-0"
140
0.1875
141
12.0
290
     0
  0
SCALE
  5
60
102
{ACAD_REACTORS
330
47
102
}
330
47
100
AcDbScale
 70
     0
300
1/4" = 1'-0"
140
0.25
141
12.0
290
     0
  0
SCALE
  5
61
102
{ACAD_REACTORS
330
47
102
}
330
47
100
AcDbScale
 70
     0
300
3/8" = 1'-0"
140
0.375
141
12.0
290
     0
  0
SCALE
  5
62
102
{ACAD_REACTORS
330
47
102
}
330
47
100
AcDbScale
 70
     0
300
1/2" = 1'-0"
140
0.5
141
12.0
290
     0
  0
SCALE
  5
63
102
{ACAD_REACTORS
330
47
102
}
330
47
100
AcDbScale
 70
     0
300
3/4" = 1'-0"
140
0.75
141
12.0
290
     0
  0
SCALE
  5
64
102
{ACAD_REACTORS
330
47
102
}
330
47
100
AcDbScale
 70
     0
300
1" = 1'-0"
140
1.0
141
12.0
290
     0
  0
SCALE
  5
65
102
{ACAD_REACTORS
330
47
102
}
330
47
100
AcDbScale
 70
     0
300
1-1/2" = 1'-0"
140
1.5
141
12.0
290
     0
  0
SCALE
  5
66
102
{ACAD_REACTORS
330
47
102
}
330
47
100
AcDbScale
 70
     0
300
3" = 1'-0"
140
3.0
141
12.0
290
     0
  0
SCALE
  5
67
102
{ACAD_REACTORS
330
47
102
}
330
47
100
AcDbScale
 70
     0
300
6" = 1'-0"
140
6.0
141
12.0
290
     0
  0
SCALE
  5
68
102
{ACAD_REACTORS
330
47
102
}
330
47
100
AcDbScale
 70
     0
300
1'-0" = 1'-0"
140
12.0
141
12.0
290
     0
  0
ENDSEC
  0
EOF
